  0
SECTION
  2
HEADER
  9
$ACADVER
  1
AC1015
  9
$ACADMAINTVER
 70
     6
  9
$DWGCODEPAGE
  3
ANSI_1254
  9
$INSBASE
 10
0.0
 20
0.0
 30
0.0
  9
$EXTMIN
 10
0.0
 20
0.0
 30
0.0
  9
$EXTMAX
 10
279.4
 20
215.9
 30
0.0
  9
$LIMMIN
 10
0.0
 20
0.0
  9
$LIMMAX
 10
279.4
 20
215.9
  9
$ORTHOMODE
 70
     0
  9
$REGENMODE
 70
     1
  9
$FILLMODE
 70
     1
  9
$QTEXTMODE
 70
     0
  9
$MIRRTEXT
 70
     1
  9
$LTSCALE
 40
1.0
  9
$ATTMODE
 70
     1
  9
$TEXTSIZE
 40
3.5
  9
$TRACEWID
 40
1.0
  9
$TEXTSTYLE
  7
Standard
  9
$CLAYER
  8
0
  9
$CELTYPE
  6
ByLayer
  9
$CECOLOR
 62
   256
  9
$CELTSCALE
 40
1.0
  9
$DISPSILH
 70
     0
  9
$DIMSCALE
 40
1.0
  9
$DIMASZ
 40
3.5
  9
$DIMEXO
 40
1.0
  9
$DIMDLI
 40
3.75
  9
$DIMRND
 40
0.0
  9
$DIMDLE
 40
0.0
  9
$DIMEXE
 40
1.0
  9
$DIMTP
 40
0.0
  9
$DIMTM
 40
0.0
  9
$DIMTXT
 40
3.5
  9
$DIMCEN
 40
2.5
  9
$DIMTSZ
 40
0.0
  9
$DIMTOL
 70
     0
  9
$DIMLIM
 70
     0
  9
$DIMTIH
 70
     1
  9
$DIMTOH
 70
     1
  9
$DIMSE1
 70
     0
  9
$DIMSE2
 70
     0
  9
$DIMTAD
 70
     1
  9
$DIMZIN
 70
     0
  9
$DIMBLK
  1

  9
$DIMASO
 70
     1
  9
$DIMSHO
 70
     1
  9
$DIMPOST
  1

  9
$DIMAPOST
  1

  9
$DIMALT
 70
     0
  9
$DIMALTD
 70
     3
  9
$DIMALTF
 40
0.0393700787
  9
$DIMLFAC
 40
1.0
  9
$DIMTOFL
 70
     1
  9
$DIMTVP
 40
0.0
  9
$DIMTIX
 70
     0
  9
$DIMSOXD
 70
     0
  9
$DIMSAH
 70
     0
  9
$DIMBLK1
  1

  9
$DIMBLK2
  1

  9
$DIMSTYLE
  2
ISO-25
  9
$DIMCLRD
 70
     0
  9
$DIMCLRE
 70
     0
  9
$DIMCLRT
 70
     0
  9
$DIMTFAC
 40
1.0
  9
$DIMGAP
 40
1.524
  9
$DIMJUST
 70
     0
  9
$DIMSD1
 70
     0
  9
$DIMSD2
 70
     0
  9
$DIMTOLJ
 70
     0
  9
$DIMTZIN
 70
     0
  9
$DIMALTZ
 70
     0
  9
$DIMALTTZ
 70
     0
  9
$DIMUPT
 70
     0
  9
$DIMDEC
 70
     2
  9
$DIMTDEC
 70
     2
  9
$DIMALTU
 70
     2
  9
$DIMALTTD
 70
     3
  9
$DIMTXSTY
  7
Standard
  9
$DIMAUNIT
 70
     0
  9
$DIMADEC
 70
     2
  9
$DIMALTRND
 40
0.0
  9
$DIMAZIN
 70
     0
  9
$DIMDSEP
 70
    44
  9
$DIMATFIT
 70
     3
  9
$DIMFRAC
 70
     0
  9
$DIMLDRBLK
  1

  9
$DIMLUNIT
 70
     2
  9
$DIMLWD
 70
    -2
  9
$DIMLWE
 70
    -2
  9
$DIMTMOVE
 70
     0
  9
$LUNITS
 70
     2
  9
$LUPREC
 70
     2
  9
$SKETCHINC
 40
1.0
  9
$FILLETRAD
 40
10.0
  9
$AUNITS
 70
     0
  9
$AUPREC
 70
     2
  9
$MENU
  1
.
  9
$ELEVATION
 40
0.0
  9
$PELEVATION
 40
0.0
  9
$THICKNESS
 40
0.0
  9
$LIMCHECK
 70
     0
  9
$CHAMFERA
 40
0.0
  9
$CHAMFERB
 40
0.0
  9
$CHAMFERC
 40
0.0
  9
$CHAMFERD
 40
0.0
  9
$SKPOLY
 70
     0
  9
$TDCREATE
 40
2460697.541021447
  9
$TDUCREATE
 40
2460697.416021447
  9
$TDUPDATE
 40
2460697.541021447
  9
$TDUUPDATE
 40
2460697.416021447
  9
$TDINDWG
 40
0.0000000116
  9
$TDUSRTIMER
 40
0.0000000116
  9
$USRTIMER
 70
     1
  9
$ANGBASE
 50
0.0
  9
$ANGDIR
 70
     0
  9
$PDMODE
 70
     0
  9
$PDSIZE
 40
-1.0
  9
$PLINEWID
 40
0.0
  9
$SPLFRAME
 70
     0
  9
$SPLINETYPE
 70
     6
  9
$SPLINESEGS
 70
     8
  9
$HANDSEED
  5
B3
  9
$SURFTAB1
 70
     6
  9
$SURFTAB2
 70
     6
  9
$SURFTYPE
 70
     6
  9
$SURFU
 70
     6
  9
$SURFV
 70
     6
  9
$UCSBASE
  2

  9
$UCSNAME
  2

  9
$UCSORG
 10
0.0
 20
0.0
 30
0.0
  9
$UCSXDIR
 10
1.0
 20
0.0
 30
0.0
  9
$UCSYDIR
 10
0.0
 20
1.0
 30
0.0
  9
$UCSORTHOREF
  2

  9
$UCSORTHOVIEW
 70
     0
  9
$UCSORGTOP
 10
0.0
 20
0.0
 30
0.0
  9
$UCSORGBOTTOM
 10
0.0
 20
0.0
 30
0.0
  9
$UCSORGLEFT
 10
0.0
 20
0.0
 30
0.0
  9
$UCSORGRIGHT
 10
0.0
 20
0.0
 30
0.0
  9
$UCSORGFRONT
 10
0.0
 20
0.0
 30
0.0
  9
$UCSORGBACK
 10
0.0
 20
0.0
 30
0.0
  9
$PUCSBASE
  2

  9
$PUCSNAME
  2

  9
$PUCSORG
 10
0.0
 20
0.0
 30
0.0
  9
$PUCSXDIR
 10
1.0
 20
0.0
 30
0.0
  9
$PUCSYDIR
 10
0.0
 20
1.0
 30
0.0
  9
$PUCSORTHOREF
  2

  9
$PUCSORTHOVIEW
 70
     0
  9
$PUCSORGTOP
 10
0.0
 20
0.0
 30
0.0
  9
$PUCSORGBOTTOM
 10
0.0
 20
0.0
 30
0.0
  9
$PUCSORGLEFT
 10
0.0
 20
0.0
 30
0.0
  9
$PUCSORGRIGHT
 10
0.0
 20
0.0
 30
0.0
  9
$PUCSORGFRONT
 10
0.0
 20
0.0
 30
0.0
  9
$PUCSORGBACK
 10
0.0
 20
0.0
 30
0.0
  9
$USERI1
 70
     0
  9
$USERI2
 70
     0
  9
$USERI3
 70
     0
  9
$USERI4
 70
     0
  9
$USERI5
 70
     0
  9
$USERR1
 40
0.0
  9
$USERR2
 40
0.0
  9
$USERR3
 40
0.0
  9
$USERR4
 40
0.0
  9
$USERR5
 40
0.0
  9
$WORLDVIEW
 70
     1
  9
$SHADEDGE
 70
     3
  9
$SHADEDIF
 70
    70
  9
$TILEMODE
 70
     1
  9
$MAXACTVP
 70
    64
  9
$PINSBASE
 10
0.0
 20
0.0
 30
0.0
  9
$PLIMCHECK
 70
     0
  9
$PEXTMIN
 10
1.0000000000E+20
 20
1.0000000000E+20
 30
1.0000000000E+20
  9
$PEXTMAX
 10
-1.0000000000E+20
 20
-1.0000000000E+20
 30
-1.0000000000E+20
  9
$PLIMMIN
 10
0.0
 20
0.0
  9
$PLIMMAX
 10
420.0
 20
297.0
  9
$UNITMODE
 70
     0
  9
$VISRETAIN
 70
     1
  9
$PLINEGEN
 70
     0
  9
$PSLTSCALE
 70
     1
  9
$TREEDEPTH
 70
  3020
  9
$CMLSTYLE
  2
Standard
  9
$CMLJUST
 70
     0
  9
$CMLSCALE
 40
20.0
  9
$PROXYGRAPHICS
 70
     1
  9
$MEASUREMENT
 70
     1
  9
$CELWEIGHT
370
    -1
  9
$ENDCAPS
280
     0
  9
$JOINSTYLE
280
     0
  9
$LWDISPLAY
290
     1
  9
$INSUNITS
 70
     4
  9
$HYPERLINKBASE
  1

  9
$STYLESHEET
  1

  9
$XEDIT
290
     1
  9
$CEPSNTYPE
380
     0
  9
$PSTYLEMODE
290
     1
  9
$FINGERPRINTGUID
  2
{200dd42d-6553-4f04-a315-ff558d3bf443}
  9
$VERSIONGUID
  2
{FAEB1C32-E019-11D5-929B-00C0DF256EC4}
  9
$EXTNAMES
290
     1
  9
$PSVPSCALE
 40
0.0
  9
$OLESTARTUP
290
     0
  0
ENDSEC
  0
SECTION
  2
CLASSES
  0
CLASS
  1
ACDBDICTIONARYWDFLT
  2
AcDbDictionaryWithDefault
  3
ObjectDBX Classes
 90
        0
280
     0
281
     0
  0
CLASS
  1
VISUALSTYLE
  2
AcDbVisualStyle
  3
ObjectDBX Classes
 90
     4095
280
     0
281
     0
  0
CLASS
  1
MATERIAL
  2
AcDbMaterial
  3
ObjectDBX Classes
 90
     1153
280
     0
281
     0
  0
CLASS
  1
SCALE
  2
AcDbScale
  3
ObjectDBX Classes
 90
     1153
280
     0
281
     0
  0
CLASS
  1
TABLESTYLE
  2
AcDbTableStyle
  3
ObjectDBX Classes
 90
     4095
280
     0
281
     0
  0
CLASS
  1
MLEADERSTYLE
  2
AcDbMLeaderStyle
  3
ACDB_MLEADERSTYLE_CLASS
 90
     4095
280
     0
281
     0
  0
CLASS
  1
SUN
  2
AcDbSun
  3
SCENEOE
 90
     1153
280
     0
281
     0
  0
CLASS
  1
ACDBPLACEHOLDER
  2
AcDbPlaceHolder
  3
ObjectDBX Classes
 90
        0
280
     0
281
     0
  0
CLASS
  1
LAYOUT
  2
AcDbLayout
  3
ObjectDBX Classes
 90
        0
280
     0
281
     0
  0
ENDSEC
  0
SECTION
  2
TABLES
  0
TABLE
  2
VPORT
  5
8
330
0
100
AcDbSymbolTable
 70
     1
  0
VPORT
  5
29
330
8
100
AcDbSymbolTableRecord
100
AcDbViewportTableRecord
  2
*Active
 70
     0
 10
0.0
 20
0.0
 11
1.0
 21
1.0
 12
139.7
 22
107.95
 13
0.0
 23
0.0
 14
10.0
 24
10.0
 15
10.0
 25
10.0
 16
0.0
 26
0.0
 36
1.0
 17
0.0
 27
0.0
 37
0.0
 40
215.9
 41
1.2941176471
 42
50.0
 43
0.0
 44
0.0
 50
0.0
 51
0.0
 71
     0
 72
  2000
 73
     1
 74
     3
 75
     0
 76
     0
 77
     0
 78
     0
281
     0
 65
     1
110
0.0
120
0.0
130
0.0
111
1.0
121
0.0
131
0.0
112
0.0
122
1.0
132
0.0
 79
     0
146
0.0
  0
ENDTAB
  0
TABLE
  2
LTYPE
  5
5
330
0
100
AcDbSymbolTable
 70
     6
  0
LTYPE
  5
14
330
5
100
AcDbSymbolTableRecord
100
AcDbLinetypeTableRecord
  2
ByBlock
 70
     0
  3

 72
    65
 73
     0
 40
0.0
  0
LTYPE
  5
15
330
5
100
AcDbSymbolTableRecord
100
AcDbLinetypeTableRecord
  2
ByLayer
 70
     0
  3

 72
    65
 73
     0
 40
0.0
  0
LTYPE
  5
16
330
5
100
AcDbSymbolTableRecord
100
AcDbLinetypeTableRecord
  2
Continuous
 70
     0
  3
Solid line
 72
    65
 73
     0
 40
0.0
  0
LTYPE
  5
6E
330
5
100
AcDbSymbolTableRecord
100
AcDbLinetypeTableRecord
  2
HIDDEN
 70
     0
  3
Hidden __ __ __ __ __ __ __ __ __ __ __ __ __ __
 72
    65
 73
     2
 40
1.905
 49
1.27
 74
     0
 49
-0.635
 74
     0
  0
LTYPE
  5
6F
330
5
100
AcDbSymbolTableRecord
100
AcDbLinetypeTableRecord
  2
PHANTOM
 70
     0
  3
Phantom ______  __  __  ______  __  __  ______
 72
    65
 73
     6
 40
12.7
 49
6.35
 74
     0
 49
-1.27
 74
     0
 49
1.27
 74
     0
 49
-1.27
 74
     0
 49
1.27
 74
     0
 49
-1.27
 74
     0
  0
LTYPE
  5
70
330
5
100
AcDbSymbolTableRecord
100
AcDbLinetypeTableRecord
  2
CENTER
 70
     0
  3
Center ____ _ ____ _ ____ _ ____ _ ____ _ ____
 72
    65
 73
     4
 40
10.16
 49
6.35
 74
     0
 49
-1.27
 74
     0
 49
1.27
 74
     0
 49
-1.27
 74
     0
  0
LTYPE
  5
71
330
5
100
AcDbSymbolTableRecord
100
AcDbLinetypeTableRecord
  2
CENTERX2
 70
     0
  3
Center (2x) ________  __  ________  __  _____
 72
    65
 73
     4
 40
20.32
 49
12.7
 74
     0
 49
-2.54
 74
     0
 49
2.54
 74
     0
 49
-2.54
 74
     0
  0
LTYPE
  5
72
330
5
100
AcDbSymbolTableRecord
100
AcDbLinetypeTableRecord
  2
DOT2
 70
     0
  3
Dot (.5x) ........................................
 72
    65
 73
     2
 40
0.635
 49
0.0
 74
     0
 49
-0.635
 74
     0
  0
ENDTAB
  0
TABLE
  2
LAYER
  5
2
330
0
100
AcDbSymbolTable
 70
    17
  0
LAYER
  5
10
330
2
100
AcDbSymbolTableRecord
100
AcDbLayerTableRecord
  2
0
 70
     0
 62
     7
  6
Continuous
370
    -3
390
F
  0
LAYER
  5
73
330
2
100
AcDbSymbolTableRecord
100
AcDbLayerTableRecord
  2
FORMAT
 70
     0
 62
     7
  6
Continuous
370
    -3
390
F
  0
LAYER
  5
74
330
2
100
AcDbSymbolTableRecord
100
AcDbLayerTableRecord
  2
YARDIMCI_GEOMETRI
 70
     0
 62
    -6
  6
Continuous
290
     0
370
    -3
390
F
  0
LAYER
  5
75
330
2
100
AcDbSymbolTableRecord
100
AcDbLayerTableRecord
  2
SAYFA_CERCEVESI
 70
     0
 62
     7
  6
Continuous
370
    25
390
F
  0
LAYER
  5
76
330
2
100
AcDbSymbolTableRecord
100
AcDbLayerTableRecord
  2
ANTET
 70
     0
 62
     7
  6
Continuous
370
    -3
390
F
  0
LAYER
  5
77
330
2
100
AcDbSymbolTableRecord
100
AcDbLayerTableRecord
  2
OLCU
 70
     0
 62
   150
  6
Continuous
370
    -3
390
F
  0
LAYER
  5
78
330
2
100
AcDbSymbolTableRecord
100
AcDbLayerTableRecord
  2
METIN
 70
     0
 62
    96
  6
Continuous
370
    -3
390
F
  0
LAYER
  5
79
330
2
100
AcDbSymbolTableRecord
100
AcDbLayerTableRecord
  2
BALON
 70
     0
 62
     5
  6
Continuous
370
    -3
390
F
  0
LAYER
  5
7A
330
2
100
AcDbSymbolTableRecord
100
AcDbLayerTableRecord
  2
VURGU
 70
     0
 62
     7
  6
Continuous
370
    -3
390
F
  0
LAYER
  5
7B
330
2
100
AcDbSymbolTableRecord
100
AcDbLayerTableRecord
  2
SILIK
 70
     0
 62
     7
  6
Continuous
370
    -3
390
F
  0
LAYER
  5
7C
330
2
100
AcDbSymbolTableRecord
100
AcDbLayerTableRecord
  2
MODEL
 70
     0
 62
     7
  6
Continuous
370
    -3
390
F
  0
LAYER
  5
7D
330
2
100
AcDbSymbolTableRecord
100
AcDbLayerTableRecord
  2
DETAYLANDıRMA
 70
     0
 62
   190
  6
Continuous
370
    -3
390
F
  0
LAYER
  5
7E
330
2
100
AcDbSymbolTableRecord
100
AcDbLayerTableRecord
  2
TOLERANS
 70
     0
 62
   230
  6
Continuous
370
    -3
390
F
  0
LAYER
  5
7F
330
2
100
AcDbSymbolTableRecord
100
AcDbLayerTableRecord
  2
MERKEZ_CIZGILERI
 70
     0
 62
    30
  6
Continuous
370
    -3
390
F
  0
LAYER
  5
80
330
2
100
AcDbSymbolTableRecord
100
AcDbLayerTableRecord
  2
KESIT-DETAY_CIZGILERI
 70
     0
 62
     7
  6
Continuous
370
    -3
390
F
  0
LAYER
  5
81
330
2
100
AcDbSymbolTableRecord
100
AcDbLayerTableRecord
  2
\U+041E\U+0421\U+0415\U+0412\U+042B\U+0415
 70
     0
 62
     7
  6
Continuous
370
    -3
390
F
  0
LAYER
  5
82
330
2
100
AcDbSymbolTableRecord
100
AcDbLayerTableRecord
  2
\U+0412\U+041E\U+0414\U+042F\U+041D\U+042B\U+0415_\U+0417\U+041D\U+0410\U+041A\U+0418
 70
     0
 62
    11
  6
Continuous
370
    -3
390
F
  0
ENDTAB
  0
TABLE
  2
STYLE
  5
3
330
0
100
AcDbSymbolTable
 70
     1
  0
STYLE
  5
11
330
3
100
AcDbSymbolTableRecord
100
AcDbTextStyleTableRecord
  2
Standard
 70
     0
 40
0.0
 41
1.0
 50
0.0
 71
     0
 42
3.5
  3
txt
  4

  0
ENDTAB
  0
TABLE
  2
VIEW
  5
6
330
0
100
AcDbSymbolTable
 70
     0
  0
ENDTAB
  0
TABLE
  2
UCS
  5
7
330
0
100
AcDbSymbolTable
 70
     0
  0
ENDTAB
  0
TABLE
  2
APPID
  5
9
330
0
100
AcDbSymbolTable
 70
     1
  0
APPID
  5
12
330
9
100
AcDbSymbolTableRecord
100
AcDbRegAppTableRecord
  2
ACAD
 70
     0
  0
ENDTAB
  0
TABLE
  2
DIMSTYLE
  5
A
330
0
100
AcDbSymbolTable
 70
     1
100
AcDbDimStyleTable
  0
DIMSTYLE
105
27
330
A
100
AcDbSymbolTableRecord
100
AcDbDimStyleTableRecord
  2
ISO-25
 70
     0
 41
2.5
 42
0.625
 43
3.75
 44
1.25
 73
     0
 74
     0
 77
     1
 78
     8
140
2.5
141
2.5
143
0.0393700787
147
0.625
171
     3
172
     1
178
     0
271
     2
272
     2
274
     3
278
    44
283
     0
284
     8
340
11
  0
ENDTAB
  0
TABLE
  2
BLOCK_RECORD
  5
1
330
0
100
AcDbSymbolTable
 70
     2
  0
BLOCK_RECORD
  5
1F
330
1
100
AcDbSymbolTableRecord
100
AcDbBlockTableRecord
  2
*Model_Space
340
22
  0
BLOCK_RECORD
  5
1B
330
1
100
AcDbSymbolTableRecord
100
AcDbBlockTableRecord
  2
*Paper_Space
340
1E
  0
BLOCK_RECORD
  5
23
330
1
100
AcDbSymbolTableRecord
100
AcDbBlockTableRecord
  2
*Paper_Space0
340
26
  0
BLOCK_RECORD
  5
85
330
1
100
AcDbSymbolTableRecord
100
AcDbBlockTableRecord
  2
SW_CENTERMARKSYMBOL_0
340
0
102
{BLKREFS
331
90
102
}
  0
ENDTAB
  0
ENDSEC
  0
SECTION
  2
BLOCKS
  0
BLOCK
  5
20
330
1F
100
AcDbEntity
  8
0
100
AcDbBlockBegin
  2
*Model_Space
 70
     0
 10
0.0
 20
0.0
 30
0.0
  3
*Model_Space
  1

  0
ENDBLK
  5
21
330
1F
100
AcDbEntity
  8
0
100
AcDbBlockEnd
  0
BLOCK
  5
1C
330
1B
100
AcDbEntity
 67
     1
  8
0
100
AcDbBlockBegin
  2
*Paper_Space
 70
     0
 10
0.0
 20
0.0
 30
0.0
  3
*Paper_Space
  1

  0
ENDBLK
  5
1D
330
1B
100
AcDbEntity
 67
     1
  8
0
100
AcDbBlockEnd
  0
BLOCK
  5
24
330
23
100
AcDbEntity
  8
0
100
AcDbBlockBegin
  2
*Paper_Space0
 70
     0
 10
0.0
 20
0.0
 30
0.0
  3
*Paper_Space0
  1

  0
ENDBLK
  5
25
330
23
100
AcDbEntity
  8
0
100
AcDbBlockEnd
  0
BLOCK
  5
86
330
85
100
AcDbEntity
  8
0
100
AcDbBlockBegin
  2
SW_CENTERMARKSYMBOL_0
 70
     0
 10
0.0
 20
0.0
 30
0.0
  3
SW_CENTERMARKSYMBOL_0
  1

  0
LINE
  5
88
330
85
100
AcDbEntity
  8
FORMAT
 62
     0
100
AcDbLine
 10
0.0
 20
0.0
 30
0.0
 11
0.0
 21
2.5
 31
0.0
  0
LINE
  5
89
330
85
100
AcDbEntity
  8
FORMAT
 62
     0
100
AcDbLine
 10
0.0
 20
0.0
 30
0.0
 11
-2.5
 21
0.0
 31
0.0
  0
LINE
  5
8A
330
85
100
AcDbEntity
  8
FORMAT
 62
     0
100
AcDbLine
 10
0.0
 20
0.0
 30
0.0
 11
0.0
 21
-2.5
 31
0.0
  0
LINE
  5
8B
330
85
100
AcDbEntity
  8
FORMAT
 62
     0
100
AcDbLine
 10
0.0
 20
0.0
 30
0.0
 11
2.5
 21
0.0
 31
0.0
  0
LINE
  5
8C
330
85
100
AcDbEntity
  8
FORMAT
 62
     0
100
AcDbLine
 10
0.0
 20
5.0
 30
0.0
 11
0.0
 21
180.0
 31
0.0
  0
LINE
  5
8D
330
85
100
AcDbEntity
  8
FORMAT
 62
     0
100
AcDbLine
 10
-5.0
 20
0.0
 30
0.0
 11
-180.0
 21
0.0
 31
0.0
  0
LINE
  5
8E
330
85
100
AcDbEntity
  8
FORMAT
 62
     0
100
AcDbLine
 10
0.0
 20
-5.0
 30
0.0
 11
0.0
 21
-180.0
 31
0.0
  0
LINE
  5
8F
330
85
100
AcDbEntity
  8
FORMAT
 62
     0
100
AcDbLine
 10
5.0
 20
0.0
 30
0.0
 11
180.0
 21
0.0
 31
0.0
  0
ENDBLK
  5
87
330
85
100
AcDbEntity
  8
0
100
AcDbBlockEnd
  0
ENDSEC
  0
SECTION
  2
ENTITIES
  0
CIRCLE
  5
83
330
1F
100
AcDbEntity
  8
0
  6
Continuous
 62
     7
370
    25
100
AcDbCircle
 10
127.8025537254
 20
106.0321058177
 30
0.0
 40
145.3
  0
CIRCLE
  5
84
330
1F
100
AcDbEntity
  8
0
  6
Continuous
 62
     7
370
    25
100
AcDbCircle
 10
127.8025537254
 20
106.0321058177
 30
0.0
 40
177.5
  0
INSERT
  5
90
330
1F
100
AcDbEntity
  8
FORMAT
100
AcDbBlockReference
  2
SW_CENTERMARKSYMBOL_0
 10
127.8025537254
 20
106.0321058177
 30
0.0
  0
ARC
  5
91
330
1F
100
AcDbEntity
  8
0
  6
Continuous
 62
     7
370
    25
100
AcDbCircle
 10
122.8773618122
 20
885.6343902993
 30
0.0
 40
532.5000000000003
100
AcDbArc
 50
270.5299469175
 51
290.0342934729
  0
ARC
  5
92
330
1F
100
AcDbEntity
  8
0
  6
Continuous
 62
     7
370
    25
100
AcDbCircle
 10
132.7277456386
 20
885.6343902993
 30
0.0
 40
532.5000000000003
100
AcDbArc
 50
249.9657065271
 51
269.4700530825
  0
LINE
  5
93
330
1F
100
AcDbEntity
  8
0
  6
Continuous
 62
     7
370
    25
100
AcDbLine
 10
-49.6974462746
 20
581.4196078528
 30
0.0
 11
-49.6974462746
 21
385.3571677962
 31
0.0
  0
LINE
  5
94
330
1F
100
AcDbEntity
  8
0
  6
Continuous
 62
     7
370
    25
100
AcDbLine
 10
305.3025537254
 20
385.3571677962
 30
0.0
 11
305.3025537254
 21
581.4196078528
 31
0.0
  0
LINE
  5
95
330
1F
100
AcDbEntity
  8
0
  6
Continuous
 62
     7
370
    25
100
AcDbLine
 10
127.8025537254
 20
385.3571677962
 30
0.0
 11
305.3025537254
 21
385.3571677962
 31
0.0
  0
LINE
  5
96
330
1F
100
AcDbEntity
  8
0
  6
Continuous
 62
     7
370
    25
100
AcDbLine
 10
-49.6974462746
 20
385.3571677962
 30
0.0
 11
127.8025537254
 21
385.3571677962
 31
0.0
  0
LINE
  5
97
330
1F
100
AcDbEntity
  8
0
  6
Continuous
 62
     7
370
    25
100
AcDbLine
 10
127.8025537254
 20
581.4196078528
 30
0.0
 11
305.3025537254
 21
581.4196078528
 31
0.0
  0
LINE
  5
98
330
1F
100
AcDbEntity
  8
0
  6
Continuous
 62
     7
370
    25
100
AcDbLine
 10
-49.6974462746
 20
581.4196078528
 30
0.0
 11
127.8025537254
 21
581.4196078528
 31
0.0
  0
LINE
  5
99
330
1F
100
AcDbEntity
  8
0
  6
Continuous
 62
     7
370
    25
100
AcDbLine
 10
305.3025537254
 20
-411.7345012118
 30
0.0
 11
305.3025537254
 21
-215.6720611552
 31
0.0
  0
LINE
  5
9A
330
1F
100
AcDbEntity
  8
0
  6
Continuous
 62
     7
370
    25
100
AcDbLine
 10
-49.6974462746
 20
-215.6720611552
 30
0.0
 11
-49.6974462746
 21
-411.7345012118
 31
0.0
  0
ARC
  5
9B
330
1F
100
AcDbEntity
  8
0
  6
Continuous
 62
     7
370
    25
100
AcDbCircle
 10
132.7277456386
 20
-715.9492836583
 30
0.0
 40
532.5000000000003
100
AcDbArc
 50
90.5299469175
 51
110.0342934729
  0
ARC
  5
9C
330
1F
100
AcDbEntity
  8
0
  6
Continuous
 62
     7
370
    25
100
AcDbCircle
 10
122.8773618122
 20
-715.9492836583
 30
0.0
 40
532.5000000000003
100
AcDbArc
 50
69.9657065271
 51
89.4700530825
  0
LINE
  5
9D
330
1F
100
AcDbEntity
  8
0
  6
Continuous
 62
     7
370
    25
100
AcDbLine
 10
305.3025537254
 20
-411.7345012118
 30
0.0
 11
-49.6974462746
 21
-411.7345012118
 31
0.0
  0
LINE
  5
9E
330
1F
100
AcDbEntity
  8
0
  6
Continuous
 62
     7
370
    25
100
AcDbLine
 10
305.3025537254
 20
-215.6720611552
 30
0.0
 11
-49.6974462746
 21
-215.6720611552
 31
0.0
  0
ARC
  5
9F
330
1F
100
AcDbEntity
  8
0
  6
Continuous
 62
     7
370
    25
100
AcDbCircle
 10
967.7879348314
 20
110.9572977309
 30
0.0
 40
532.5000000000002
100
AcDbArc
 50
180.5299469175
 51
200.0342934729
  0
ARC
  5
A0
330
1F
100
AcDbEntity
  8
0
  6
Continuous
 62
     7
370
    25
100
AcDbCircle
 10
967.7879348314
 20
101.1069139044
 30
0.0
 40
532.5000000000002
100
AcDbArc
 50
159.9657065271
 51
179.4700530825
  0
LINE
  5
A1
330
1F
100
AcDbEntity
  8
0
  6
Continuous
 62
     7
370
    25
100
AcDbLine
 10
663.5731523849
 20
283.5321058177
 30
0.0
 11
467.5107123283
 21
283.5321058177
 31
0.0
  0
LINE
  5
A2
330
1F
100
AcDbEntity
  8
0
  6
Continuous
 62
     7
370
    25
100
AcDbLine
 10
467.5107123283
 20
-71.4678941823
 30
0.0
 11
663.5731523849
 21
-71.4678941823
 31
0.0
  0
LINE
  5
A3
330
1F
100
AcDbEntity
  8
0
  6
Continuous
 62
     7
370
    25
100
AcDbLine
 10
467.5107123283
 20
283.5321058177
 30
0.0
 11
467.5107123283
 21
-71.4678941823
 31
0.0
  0
LINE
  5
A4
330
1F
100
AcDbEntity
  8
0
  6
Continuous
 62
     7
370
    25
100
AcDbLine
 10
663.5731523849
 20
283.5321058177
 30
0.0
 11
663.5731523849
 21
-71.4678941823
 31
0.0
  0
ARC
  5
A5
330
1F
100
AcDbEntity
  8
0
  6
Continuous
 62
     7
370
    25
100
AcDbCircle
 10
-678.6009193854
 20
101.1069139044
 30
0.0
 40
532.5000000000003
100
AcDbArc
 50
0.5299469175
 51
20.0342934729
  0
ARC
  5
A6
330
1F
100
AcDbEntity
  8
0
  6
Continuous
 62
     7
370
    25
100
AcDbCircle
 10
-678.6009193854
 20
110.9572977309
 30
0.0
 40
532.5000000000003
100
AcDbArc
 50
339.9657065271
 51
359.4700530825
  0
LINE
  5
A7
330
1F
100
AcDbEntity
  8
0
  6
Continuous
 62
     7
370
    25
100
AcDbLine
 10
-374.386136939
 20
-71.4678941823
 30
0.0
 11
-178.3236968823
 21
-71.4678941823
 31
0.0
  0
LINE
  5
A8
330
1F
100
AcDbEntity
  8
0
  6
Continuous
 62
     7
370
    25
100
AcDbLine
 10
-178.3236968823
 20
283.5321058177
 30
0.0
 11
-374.386136939
 21
283.5321058177
 31
0.0
  0
LINE
  5
A9
330
1F
100
AcDbEntity
  8
0
  6
Continuous
 62
     7
370
    25
100
AcDbLine
 10
-178.3236968823
 20
-71.4678941823
 30
0.0
 11
-178.3236968823
 21
283.5321058177
 31
0.0
  0
LINE
  5
AA
330
1F
100
AcDbEntity
  8
0
  6
Continuous
 62
     7
370
    25
100
AcDbLine
 10
-374.386136939
 20
-71.4678941823
 30
0.0
 11
-374.386136939
 21
283.5321058177
 31
0.0
  0
LINE
  5
AB
330
1F
100
AcDbEntity
  8
0
  6
Continuous
 62
     7
370
    25
100
AcDbLine
 10
424.5065356178
 20
-456.2428540713
 30
0.0
 11
563.1436165178
 21
-536.2763373143
 31
0.0
  0
LINE
  5
AC
330
1F
100
AcDbEntity
  8
0
  6
Continuous
 62
     7
370
    25
100
AcDbLine
 10
740.6291915607
 20
-228.8289911692
 30
0.0
 11
601.9921106607
 21
-148.7955079262
 31
0.0
  0
LWPOLYLINE
  5
AD
330
1F
100
AcDbEntity
  8
0
  6
Continuous
 62
     7
370
    25
100
AcDbPolyline
 90
      142
 70
   128
 43
0.0
 10
513.2493231393
 20
-447.4551751085
 10
518.8404632219
 20
-444.083600142
 10
524.4205026135
 20
-440.4309621252
 10
529.9783626622
 20
-436.5045130327
 10
535.5030087515
 20
-432.3120484656
 10
540.9834722079
 20
-427.8618921744
 10
546.4088720786
 20
-423.1628795325
 10
551.7684367342
 20
-418.2243399944
 10
557.0515252553
 20
-413.0560785733
 10
562.2476485585
 20
-407.6683563739
 10
567.3464902222
 20
-402.0718702198
 10
572.3379269681
 20
-396.2777314163
 10
577.2120487606
 20
-390.2974436897
 10
581.9591784821
 20
-384.1428803476
 10
586.5698911458
 20
-377.826260706
 10
591.0350326087
 20
-371.3601258283
 10
595.3457377456
 20
-364.7573136269
 10
599.4934480504
 20
-358.0309333742
 10
603.4699286285
 20
-351.1943396755
 10
607.2672845455
 20
-344.2611059549
 10
610.8779765029
 20
-337.2449975061
 10
614.2948358059
 20
-330.159944163
 10
617.5110785968
 20
-323.0200126432
 10
620.5203193232
 20
-315.8393786198
 10
623.3165834161
 20
-308.632298577
 10
625.894319152
 20
-301.4130815052
 10
628.2484086752
 20
-294.1960604914
 10
630.374178159
 20
-286.9955642631
 10
632.2674070847
 20
-279.8258887388
 10
633.9243366216
 20
-272.7012686457
 10
635.3416770894
 20
-265.6358492575
 10
636.5166144898
 20
-258.6436583104
 10
637.4468160934
 20
-251.7385781522
 10
638.1304350711
 20
-244.9343181806
 10
638.5661141605
 20
-238.2443876238
 10
638.7529883613
 20
-231.6820687196
 10
638.6906866519
 20
-225.2603903449
 10
638.3793327267
 20
-218.9921021476
 10
637.81954475
 20
-212.8896492338
 10
637.012434129
 20
-206.9651474588
 10
635.9596033073
 20
-201.2303593724
 10
634.6631425829
 20
-195.6966708657
 10
633.1256259586
 20
-190.3750685648
 10
631.3501060313
 20
-185.2761180187
 10
629.3401079315
 20
-180.4099427216
 10
627.0996223244
 20
-175.786204014
 10
624.6330974867
 20
-171.4140819014
 10
621.9454304753
 20
-167.3022568273
 10
619.0419574041
 20
-163.4588924399
 10
615.9284428502
 20
-159.8916193834
 10
612.6110684086
 20
-156.6075201483
 10
609.096420419
 20
-153.6131150095
 10
605.3914768899
 20
-150.9143490814
 10
601.5035936436
 20
-148.5165805138
 10
597.4404897124
 20
-146.4245698543
 10
593.210232013
 20
-144.6424705965
 10
588.8212193307
 20
-143.1738209334
 10
584.2821656437
 20
-142.021536733
 10
579.602082823
 20
-141.1879057489
 10
574.7902627399
 20
-140.6745830783
 10
569.8562588177
 20
-140.4825878758
 10
564.8098670645
 20
-140.6123013301
 10
559.661106624
 20
-141.0634659072
 10
554.4201998835
 20
-141.8351858616
 10
549.0975521782
 20
-142.9259290147
 10
543.7037311324
 20
-144.333529797
 10
538.2494456785
 20
-146.0551935473
 10
532.7455247954
 20
-148.0875020618
 10
527.2028960086
 20
-150.4264203799
 10
521.6325636944
 20
-153.0673047958
 10
516.0455872322
 20
-156.004912078
 10
510.4530590464
 20
-159.2334098792
 10
504.8660825841
 20
-162.7463883157
 10
499.29575027
 20
-166.5368726942
 10
493.7531214831
 20
-170.5973373586
 10
488.2492006001
 20
-174.9197206324
 10
482.7949151462
 20
-179.4954408235
 10
477.4010941003
 20
-184.3154132631
 10
472.078446395
 20
-189.3700683421
 10
466.8375396545
 20
-194.6493705107
 10
461.688779214
 20
-200.1428382031
 10
456.6423874608
 20
-205.8395646478
 10
451.7083835386
 20
-211.7282395216
 10
446.8965634555
 20
-217.7971714057
 10
442.2164806348
 20
-224.0343109976
 10
437.6774269478
 20
-230.427275034
 10
433.2884142655
 20
-236.9633708765
 10
429.0581565661
 20
-243.6296217119
 10
424.9950526349
 20
-250.4127923162
 10
421.1071693886
 20
-257.299415332
 10
417.4022258595
 20
-264.2758180069
 10
413.88757787
 20
-271.3281493389
 10
410.5702034283
 20
-278.4424075772
 10
407.4566888744
 20
-285.6044680204
 10
404.5532158033
 20
-292.8001110605
 10
401.8655487918
 20
-300.0150504144
 10
399.3990239541
 20
-307.2349614877
 10
397.158538347
 20
-314.4455098154
 10
395.1485402472
 20
-321.6323795212
 10
393.3730203199
 20
-328.7813017405
 10
391.8355036956
 20
-335.87808295
 10
390.5390429712
 20
-342.9086331476
 10
389.4862121495
 20
-349.8589938265
 10
388.6791015286
 20
-356.7153656891
 10
388.1193135519
 20
-363.4641360435
 10
387.8079596266
 20
-370.0919058311
 10
387.7456579173
 20
-376.5855162284
 10
387.932532118
 20
-382.9320747729
 10
388.3682112074
 20
-389.1189809602
 10
389.0518301851
 20
-395.1339512608
 10
389.9820317887
 20
-400.9650435078
 10
391.1569691892
 20
-406.6006806075
 10
392.574309657
 20
-412.0296735238
 10
394.2312391938
 20
-417.2412434941
 10
396.1244681195
 20
-422.2250434284
 10
398.2502376033
 20
-426.9711784534
 10
400.6043271265
 20
-431.4702255573
 10
403.1820628625
 20
-435.7132522985
 10
405.9783269554
 20
-439.6918345401
 10
408.9875676817
 20
-443.3980731754
 10
412.2038104726
 20
-446.8246098107
 10
415.6206697757
 20
-449.9646413747
 10
419.231361733
 20
-452.8119336252
 10
423.0287176501
 20
-455.3608335272
 10
427.0051982281
 20
-457.6062804758
 10
431.152908533
 20
-459.5438163439
 10
435.4636136699
 20
-461.1695943334
 10
439.9287551327
 20
-462.4803866126
 10
444.5394677965
 20
-463.4735907248
 10
449.2865975179
 20
-464.1472347551
 10
454.1607193104
 20
-464.4999812457
 10
459.1521560563
 20
-464.5311298511
 10
464.25099772
 20
-464.2406187285
 10
469.4471210233
 20
-463.629024661
 10
474.7302095443
 20
-462.697561912
 10
480.0897742
 20
-461.4480798144
 10
485.5151740706
 20
-459.8830590994
 10
490.995637527
 20
-458.0056069708
 10
496.5202836163
 20
-455.8194509359
 10
502.0781436651
 20
-453.3289314051
 10
507.6581830566
 20
-450.5389930746
 10
513.2493231393
 20
-447.4551751085
  0
LWPOLYLINE
  5
AE
330
1F
100
AcDbEntity
  8
0
  6
Continuous
 62
     7
370
    25
100
AcDbPolyline
 90
       54
 70
   128
 43
0.0
 10
651.8864040393
 20
-527.4886583515
 10
657.4775441219
 20
-524.117083385
 10
663.0575835135
 20
-520.4644453682
 10
668.6154435623
 20
-516.5379962757
 10
674.1400896516
 20
-512.3455317086
 10
679.620553108
 20
-507.8953754174
 10
685.0459529786
 20
-503.1963627755
 10
690.4055176342
 20
-498.2578232374
 10
695.6886061553
 20
-493.0895618163
 10
700.8847294586
 20
-487.7018396169
 10
705.9835711222
 20
-482.1053534628
 10
710.9750078681
 20
-476.3112146593
 10
715.8491296606
 20
-470.3309269327
 10
720.5962593821
 20
-464.1763635906
 10
725.2069720458
 20
-457.859743949
 10
729.6721135087
 20
-451.3936090713
 10
733.9828186456
 20
-444.7907968699
 10
738.1305289505
 20
-438.0644166172
 10
742.1070095285
 20
-431.2278229185
 10
745.9043654455
 20
-424.2945891979
 10
749.5150574029
 20
-417.2784807491
 10
752.931916706
 20
-410.193427406
 10
756.1481594968
 20
-403.0534958862
 10
759.1574002232
 20
-395.8728618628
 10
761.9536643161
 20
-388.66578182
 10
764.531400052
 20
-381.4465647482
 10
766.8854895753
 20
-374.2295437344
 10
769.011259059
 20
-367.029047506
 10
770.9044879847
 20
-359.8593719818
 10
772.5614175216
 20
-352.7347518887
 10
773.9787579894
 20
-345.6693325005
 10
775.1536953898
 20
-338.6771415534
 10
776.0838969935
 20
-331.7720613952
 10
776.7675159711
 20
-324.9678014236
 10
777.2031950606
 20
-318.2778708668
 10
777.3900692613
 20
-311.7155519626
 10
777.3277675519
 20
-305.2938735879
 10
777.0164136267
 20
-299.0255853906
 10
776.45662565
 20
-292.9231324768
 10
775.6495150291
 20
-286.9986307018
 10
774.5966842073
 20
-281.2638426154
 10
773.3002234829
 20
-275.7301541087
 10
771.7627068586
 20
-270.4085518078
 10
769.9871869313
 20
-265.3096012617
 10
767.9771888315
 20
-260.4434259645
 10
765.7367032244
 20
-255.819687257
 10
763.2701783868
 20
-251.4475651444
 10
760.5825113753
 20
-247.3357400703
 10
757.6790383041
 20
-243.4923756829
 10
754.5655237502
 20
-239.9251026264
 10
751.2481493086
 20
-236.6410033912
 10
747.7335013191
 20
-233.6465982525
 10
744.0285577899
 20
-230.9478323244
 10
740.6291915607
 20
-228.8289911692
  0
LWPOLYLINE
  5
AF
330
1F
100
AcDbEntity
  8
0
  6
Continuous
 62
     7
370
    25
100
AcDbPolyline
 90
       19
 70
   128
 43
0.0
 10
563.1436165178
 20
-536.2763373143
 10
565.6422791281
 20
-537.6397637187
 10
569.789989433
 20
-539.5772995869
 10
574.1006945699
 20
-541.2030775764
 10
578.5658360327
 20
-542.5138698556
 10
583.1765486965
 20
-543.5070739678
 10
587.9236784179
 20
-544.1807179981
 10
592.7978002104
 20
-544.5334644887
 10
597.7892369563
 20
-544.5646130941
 10
602.88807862
 20
-544.2741019715
 10
608.0842019233
 20
-543.662507904
 10
613.3672904444
 20
-542.731045155
 10
618.7268551
 20
-541.4815630574
 10
624.1522549706
 20
-539.9165423424
 10
629.632718427
 20
-538.0390902138
 10
635.1573645163
 20
-535.8529341788
 10
640.7152245651
 20
-533.3624146481
 10
646.2952639566
 20
-530.5724763176
 10
651.8864040393
 20
-527.4886583515
  0
LWPOLYLINE
  5
B0
330
1F
100
AcDbEntity
  8
0
  6
Continuous
 62
     7
370
    25
100
AcDbPolyline
 90
      129
 70
   128
 43
0.0
 10
513.2493231393
 20
-421.1625609658
 10
518.2906643267
 20
-418.1093454987
 10
523.3198604816
 20
-414.7776632009
 10
528.32479583
 20
-411.1755403867
 10
533.2934130442
 20
-407.3116548857
 10
538.2137422901
 20
-403.1953151362
 10
543.0739300638
 20
-398.8364377615
 10
547.862267747
 20
-394.2455236788
 10
552.5672198149
 20
-389.4336328024
 10
557.1774516259
 20
-384.4123573987
 10
561.6818567277
 20
-379.1937941601
 10
566.0695836139
 20
-373.7905150625
 10
570.3300618661
 20
-368.2155370784
 10
574.453027619
 20
-362.4822908183
 10
578.4285482871
 20
-356.6045881745
 10
582.2470464927
 20
-350.5965890474
 10
585.8993231393
 20
-344.4727672333
 10
589.3765795725
 20
-338.2478755553
 10
592.6704387769
 20
-331.9369103226
 10
595.7729655574
 20
-325.5550752032
 10
598.676685655
 20
-319.117744597
 10
601.3746037538
 20
-312.6404265973
 10
603.8602203327
 20
-306.1387256304
 10
606.1275473238
 20
-299.6283048634
 10
608.1711225375
 20
-293.1248484703
 10
609.9860228224
 20
-286.644023847
 10
611.5678759246
 20
-280.2014438679
 10
612.9128710214
 20
-273.8126292723
 10
614.0177679019
 20
-267.4929712742
 10
614.8799047727
 20
-261.2576944832
 10
615.4972046706
 20
-255.1218202274
 10
615.8681804659
 20
-249.1001303652
 10
615.9919384457
 20
-243.2071316749
 10
615.8681804659
 20
-237.4570209065
 10
615.4972046706
 20
-231.8636505806
 10
614.8799047727
 20
-226.4404956161
 10
614.0177679019
 20
-221.2006208685
 10
612.9128710214
 20
-216.1566496548
 10
611.5678759246
 20
-211.3207333437
 10
609.9860228224
 20
-206.704522081
 10
608.1711225375
 20
-202.3191367239
 10
606.1275473238
 20
-198.1751420501
 10
603.8602203327
 20
-194.2825213055
 10
601.3746037538
 20
-190.6506521545
 10
598.676685655
 20
-187.288284088
 10
595.7729655574
 20
-184.2035173453
 10
592.6704387769
 20
-181.4037833995
 10
589.3765795725
 20
-178.895827055
 10
585.8993231393
 20
-176.6856901982
 10
582.2470464927
 20
-174.7786972425
 10
578.4285482871
 20
-173.1794423009
 10
574.453027619
 20
-171.8917781187
 10
570.3300618661
 20
-170.9188067916
 10
566.0695836139
 20
-170.2628722928
 10
561.6818567277
 20
-169.925554826
 10
557.1774516259
 20
-169.9076670184
 10
552.5672198149
 20
-170.2092519634
 10
547.862267747
 20
-170.8295831165
 10
543.0739300638
 20
-171.7671660455
 10
538.2137422901
 20
-173.019742031
 10
533.2934130442
 20
-174.5842935078
 10
528.32479583
 20
-176.4570513344
 10
523.3198604816
 20
-178.633503873
 10
518.2906643267
 20
-181.108407859
 10
513.2493231393
 20
-183.8758010318
 10
508.2079819519
 20
-186.9290164988
 10
503.178785797
 20
-190.2606987967
 10
498.1738504486
 20
-193.8628216108
 10
493.2052332344
 20
-197.7267071119
 10
488.2849039884
 20
-201.8430468613
 10
483.4247162148
 20
-206.201924236
 10
478.6363785316
 20
-210.7928383187
 10
473.9314264636
 20
-215.6047291952
 10
469.3211946527
 20
-220.6260045989
 10
464.8167895509
 20
-225.8445678375
 10
460.4290626647
 20
-231.2478469351
 10
456.1685844124
 20
-236.8228249191
 10
452.0456186595
 20
-242.5560711792
 10
448.0700979915
 20
-248.4337738231
 10
444.2515997858
 20
-254.4417729501
 10
440.5993231393
 20
-260.5655947642
 10
437.1220667061
 20
-266.7904864423
 10
433.8282075016
 20
-273.101451675
 10
430.7256807211
 20
-279.4832867943
 10
427.8219606235
 20
-285.9206174005
 10
425.1240425247
 20
-292.3979354003
 10
422.6384259458
 20
-298.8996363672
 10
420.3710989548
 20
-305.4100571341
 10
418.327523741
 20
-311.9135135273
 10
416.5126234561
 20
-318.3943381505
 10
414.9307703539
 20
-324.8369181297
 10
413.5857752571
 20
-331.2257327253
 10
412.4808783766
 20
-337.5453907234
 10
411.6187415058
 20
-343.7806675143
 10
411.001441608
 20
-349.9165417702
 10
410.6304658126
 20
-355.9382316324
 10
410.5067078329
 20
-361.8312303227
 10
410.6304658126
 20
-367.5813410911
 10
411.001441608
 20
-373.174711417
 10
411.6187415058
 20
-378.5978663814
 10
412.4808783766
 20
-383.8377411291
 10
413.5857752571
 20
-388.8817123427
 10
414.9307703539
 20
-393.7176286539
 10
416.5126234561
 20
-398.3338399166
 10
418.327523741
 20
-402.7192252736
 10
420.3710989548
 20
-406.8632199475
 10
422.6384259458
 20
-410.7558406921
 10
425.1240425247
 20
-414.387709843
 10
427.8219606235
 20
-417.7500779095
 10
430.7256807211
 20
-420.8348446523
 10
433.8282075016
 20
-423.6345785981
 10
437.1220667061
 20
-426.1425349426
 10
440.5993231393
 20
-428.3526717993
 10
444.2515997858
 20
-430.259664755
 10
448.0700979915
 20
-431.8589196966
 10
452.0456186595
 20
-433.1465838789
 10
456.1685844124
 20
-434.119555206
 10
460.4290626647
 20
-434.7754897048
 10
464.8167895509
 20
-435.1128071716
 10
469.3211946527
 20
-435.1306949792
 10
473.9314264636
 20
-434.8291100341
 10
478.6363785316
 20
-434.2087788811
 10
483.4247162148
 20
-433.2711959521
 10
488.2849039884
 20
-432.0186199666
 10
493.2052332344
 20
-430.4540684897
 10
498.1738504486
 20
-428.5813106632
 10
503.178785797
 20
-426.4048581245
 10
508.2079819519
 20
-423.9299541386
 10
513.2493231393
 20
-421.1625609658
  0
LWPOLYLINE
  5
B1
330
1F
100
AcDbEntity
  8
0
  6
Continuous
 62
     7
370
    25
100
AcDbPolyline
 90
       25
 70
   128
 43
0.0
 10
613.621910346
 20
-269.9114834952
 10
610.6143771337
 20
-272.462348534
 10
605.75418936
 20
-276.8212259087
 10
600.9658516768
 20
-281.4121399914
 10
596.2608996089
 20
-286.2240308679
 10
591.6506677979
 20
-291.2453062715
 10
587.1462626961
 20
-296.4638695101
 10
582.7585358099
 20
-301.8671486078
 10
578.4980575577
 20
-307.4421265918
 10
574.3750918048
 20
-313.1753728519
 10
570.3995711367
 20
-319.0530754957
 10
566.5810729311
 20
-325.0610746228
 10
562.9287962845
 20
-331.1848964369
 10
559.4515398513
 20
-337.409788115
 10
556.1576806469
 20
-343.7207533477
 10
553.0551538664
 20
-350.102588467
 10
550.1514337688
 20
-356.5399190732
 10
547.45351567
 20
-363.0172370729
 10
544.9678990911
 20
-369.5189380398
 10
542.7005721
 20
-376.0293588068
 10
540.6569968863
 20
-382.5328151999
 10
538.8420966014
 20
-389.0136398232
 10
537.2602434992
 20
-395.4562198023
 10
535.9152484024
 20
-401.8450343979
 10
535.2062090778
 20
-405.7461801751
  0
ENDSEC
  0
SECTION
  2
OBJECTS
  0
DICTIONARY
  5
C
330
0
100
AcDbDictionary
281
     1
  3
ACAD_GROUP
350
D
  3
ACAD_LAYOUT
350
1A
  3
ACAD_MLINESTYLE
350
17
  3
ACAD_PLOTSETTINGS
350
19
  3
ACAD_PLOTSTYLENAME
350
E
  3
ACAD_SCALELIST
350
47
  3
DWGPROPS
350
B2
  0
DICTIONARY
  5
D
102
{ACAD_REACTORS
330
C
102
}
330
C
100
AcDbDictionary
281
     1
  0
DICTIONARY
  5
1A
102
{ACAD_REACTORS
330
C
102
}
330
C
100
AcDbDictionary
281
     1
  3
Layout1
350
1E
  3
Layout2
350
26
  3
Model
350
22
  0
DICTIONARY
  5
17
102
{ACAD_REACTORS
330
C
102
}
330
C
100
AcDbDictionary
281
     1
  3
Standard
350
18
  0
DICTIONARY
  5
19
102
{ACAD_REACTORS
330
C
102
}
330
C
100
AcDbDictionary
281
     1
  0
ACDBDICTIONARYWDFLT
  5
E
102
{ACAD_REACTORS
330
C
102
}
330
C
100
AcDbDictionary
281
     1
  3
Normal
350
F
100
AcDbDictionaryWithDefault
340
F
  0
DICTIONARY
  5
47
102
{ACAD_REACTORS
330
C
102
}
330
C
100
AcDbDictionary
281
     1
  3
A0
350
48
  3
A1
350
49
  3
A2
350
4A
  3
A3
350
4B
  3
A4
350
4C
  3
A5
350
4D
  3
A6
350
4E
  3
A7
350
4F
  3
A8
350
50
  3
A9
350
51
  3
B0
350
52
  3
B1
350
53
  3
B2
350
54
  3
B3
350
55
  3
B4
350
56
  3
B5
350
57
  3
B6
350
58
  3
B7
350
59
  3
B8
350
5A
  3
B9
350
5B
  3
C0
350
5C
  3
C1
350
5D
  3
C2
350
5E
  3
C3
350
5F
  3
C4
350
60
  3
C5
350
61
  3
C6
350
62
  3
C7
350
63
  3
C8
350
64
  3
C9
350
65
  3
D0
350
66
  3
D1
350
67
  3
D2
350
68
  0
XRECORD
  5
B2
102
{ACAD_REACTORS
330
C
102
}
330
C
100
AcDbXrecord
280
     1
  1
DWGPROPS COOKIE
  2

  3

  4

  6

  7

  8
b.kav
  9

300
=
301
=
302
=
303
=
304
=
305
=
306
=
307
=
308
=
309
=
 40
0.0
 41
2460697.416021447
 42
2460697.416021447
  1

 90
        0
  0
LAYOUT
  5
1E
102
{ACAD_REACTORS
330
1A
102
}
330
1A
100
AcDbPlotSettings
  1

  2
none_device
  4

  6

 40
0.0
 41
0.0
 42
0.0
 43
0.0
 44
0.0
 45
0.0
 46
0.0
 47
0.0
 48
0.0
 49
0.0
140
0.0
141
0.0
142
1.0
143
1.0
 70
   688
 72
     1
 73
     0
 74
     5
  7

 75
    16
147
1.0
148
0.0
149
0.0
100
AcDbLayout
  1
Layout1
 70
     1
 71
     1
 10
0.0
 20
0.0
 11
420.0
 21
297.0
 12
0.0
 22
0.0
 32
0.0
 14
1.0000000000E+20
 24
1.0000000000E+20
 34
1.0000000000E+20
 15
-1.0000000000E+20
 25
-1.0000000000E+20
 35
-1.0000000000E+20
146
0.0
 13
0.0
 23
0.0
 33
0.0
 16
1.0
 26
0.0
 36
0.0
 17
0.0
 27
1.0
 37
0.0
 76
     0
330
1B
  0
LAYOUT
  5
26
102
{ACAD_REACTORS
330
1A
102
}
330
1A
100
AcDbPlotSettings
  1

  2
none_device
  4

  6

 40
0.0
 41
0.0
 42
0.0
 43
0.0
 44
0.0
 45
0.0
 46
0.0
 47
0.0
 48
0.0
 49
0.0
140
0.0
141
0.0
142
1.0
143
1.0
 70
   688
 72
     1
 73
     0
 74
     5
  7

 75
    16
147
1.0
148
0.0
149
0.0
100
AcDbLayout
  1
Layout2
 70
     1
 71
     2
 10
0.0
 20
0.0
 11
0.0
 21
0.0
 12
0.0
 22
0.0
 32
0.0
 14
0.0
 24
0.0
 34
0.0
 15
0.0
 25
0.0
 35
0.0
146
0.0
 13
0.0
 23
0.0
 33
0.0
 16
1.0
 26
0.0
 36
0.0
 17
0.0
 27
1.0
 37
0.0
 76
     0
330
23
  0
LAYOUT
  5
22
102
{ACAD_REACTORS
330
1A
102
}
330
1A
100
AcDbPlotSettings
  1

  2
none_device
  4
Letter_(8.50_x_11.00_Inches)
  6

 40
6.35
 41
6.35
 42
6.35000508
 43
6.35000508
 44
215.9
 45
279.4
 46
0.0
 47
0.0
 48
0.0
 49
0.0
140
0.0
141
0.0
142
1.0
143
1.0
 70
  1712
 72
     1
 73
     0
 74
     0
  7

 75
     0
147
1.0
148
0.0
149
0.0
100
AcDbLayout
  1
Model
 70
     1
 71
     0
 10
0.0
 20
0.0
 11
279.4
 21
215.9
 12
0.0
 22
0.0
 32
0.0
 14
0.0
 24
0.0
 34
0.0
 15
279.4
 25
215.9
 35
0.0
146
0.0
 13
0.0
 23
0.0
 33
0.0
 16
1.0
 26
0.0
 36
0.0
 17
0.0
 27
1.0
 37
0.0
 76
     0
330
1F
331
29
  0
MLINESTYLE
  5
18
102
{ACAD_REACTORS
330
17
102
}
330
17
100
AcDbMlineStyle
  2
Standard
 70
     0
  3

 62
   256
 51
90.0
 52
90.0
 71
     2
 49
0.5
 62
   256
  6
BYLAYER
 49
-0.5
 62
   256
  6
BYLAYER
  0
ACDBPLACEHOLDER
  5
F
102
{ACAD_REACTORS
330
E
102
}
330
E
  0
SCALE
  5
48
102
{ACAD_REACTORS
330
47
102
}
330
47
100
AcDbScale
 70
     0
300
1:1
140
1.0
141
1.0
290
     1
  0
SCALE
  5
49
102
{ACAD_REACTORS
330
47
102
}
330
47
100
AcDbScale
 70
     0
300
1:2
140
1.0
141
2.0
290
     0
  0
SCALE
  5
4A
102
{ACAD_REACTORS
330
47
102
}
330
47
100
AcDbScale
 70
     0
300
1:4
140
1.0
141
4.0
290
     0
  0
SCALE
  5
4B
102
{ACAD_REACTORS
330
47
102
}
330
47
100
AcDbScale
 70
     0
300
1:5
140
1.0
141
5.0
290
     0
  0
SCALE
  5
4C
102
{ACAD_REACTORS
330
47
102
}
330
47
100
AcDbScale
 70
     0
300
1:8
140
1.0
141
8.0
290
     0
  0
SCALE
  5
4D
102
{ACAD_REACTORS
330
47
102
}
330
47
100
AcDbScale
 70
     0
300
1:10
140
1.0
141
10.0
290
     0
  0
SCALE
  5
4E
102
{ACAD_REACTORS
330
47
102
}
330
47
100
AcDbScale
 70
     0
300
1:16
140
1.0
141
16.0
290
     0
  0
SCALE
  5
4F
102
{ACAD_REACTORS
330
47
102
}
330
47
100
AcDbScale
 70
     0
300
1:20
140
1.0
141
20.0
290
     0
  0
SCALE
  5
50
102
{ACAD_REACTORS
330
47
102
}
330
47
100
AcDbScale
 70
     0
300
1:30
140
1.0
141
30.0
290
     0
  0
SCALE
  5
51
102
{ACAD_REACTORS
330
47
102
}
330
47
100
AcDbScale
 70
     0
300
1:40
140
1.0
141
40.0
290
     0
  0
SCALE
  5
52
102
{ACAD_REACTORS
330
47
102
}
330
47
100
AcDbScale
 70
     0
300
1:50
140
1.0
141
50.0
290
     0
  0
SCALE
  5
53
102
{ACAD_REACTORS
330
47
102
}
330
47
100
AcDbScale
 70
     0
300
1:100
140
1.0
141
100.0
290
     0
  0
SCALE
  5
54
102
{ACAD_REACTORS
330
47
102
}
330
47
100
AcDbScale
 70
     0
300
2:1
140
2.0
141
1.0
290
     0
  0
SCALE
  5
55
102
{ACAD_REACTORS
330
47
102
}
330
47
100
AcDbScale
 70
     0
300
4:1
140
4.0
141
1.0
290
     0
  0
SCALE
  5
56
102
{ACAD_REACTORS
330
47
102
}
330
47
100
AcDbScale
 70
     0
300
8:1
140
8.0
141
1.0
290
     0
  0
SCALE
  5
57
102
{ACAD_REACTORS
330
47
102
}
330
47
100
AcDbScale
 70
     0
300
10:1
140
10.0
141
1.0
290
     0
  0
SCALE
  5
58
102
{ACAD_REACTORS
330
47
102
}
330
47
100
AcDbScale
 70
     0
300
100:1
140
100.0
141
1.0
290
     0
  0
SCALE
  5
59
102
{ACAD_REACTORS
330
47
102
}
330
47
100
AcDbScale
 70
     0
300
1/128" = 1'-0"
140
0.0078125
141
12.0
290
     0
  0
SCALE
  5
5A
102
{ACAD_REACTORS
330
47
102
}
330
47
100
AcDbScale
 70
     0
300
1/64" = 1'-0"
140
0.015625
141
12.0
290
     0
  0
SCALE
  5
5B
102
{ACAD_REACTORS
330
47
102
}
330
47
100
AcDbScale
 70
     0
300
1/32" = 1'-0"
140
0.03125
141
12.0
290
     0
  0
SCALE
  5
5C
102
{ACAD_REACTORS
330
47
102
}
330
47
100
AcDbScale
 70
     0
300
1/16" = 1'-0"
140
0.0625
141
12.0
290
     0
  0
SCALE
  5
5D
102
{ACAD_REACTORS
330
47
102
}
330
47
100
AcDbScale
 70
     0
300
3/32" = 1'-0"
140
0.09375
141
12.0
290
     0
  0
SCALE
  5
5E
102
{ACAD_REACTORS
330
47
102
}
330
47
100
AcDbScale
 70
     0
300
1/8" = 1'-0"
140
0.125
141
12.0
290
     0
  0
SCALE
  5
5F
102
{ACAD_REACTORS
330
47
102
}
330
47
100
AcDbScale
 70
     0
300
3/16" = 1'-0"
140
0.1875
141
12.0
290
     0
  0
SCALE
  5
60
102
{ACAD_REACTORS
330
47
102
}
330
47
100
AcDbScale
 70
     0
300
1/4" = 1'-0"
140
0.25
141
12.0
290
     0
  0
SCALE
  5
61
102
{ACAD_REACTORS
330
47
102
}
330
47
100
AcDbScale
 70
     0
300
3/8" = 1'-0"
140
0.375
141
12.0
290
     0
  0
SCALE
  5
62
102
{ACAD_REACTORS
330
47
102
}
330
47
100
AcDbScale
 70
     0
300
1/2" = 1'-0"
140
0.5
141
12.0
290
     0
  0
SCALE
  5
63
102
{ACAD_REACTORS
330
47
102
}
330
47
100
AcDbScale
 70
     0
300
3/4" = 1'-0"
140
0.75
141
12.0
290
     0
  0
SCALE
  5
64
102
{ACAD_REACTORS
330
47
102
}
330
47
100
AcDbScale
 70
     0
300
1" = 1'-0"
140
1.0
141
12.0
290
     0
  0
SCALE
  5
65
102
{ACAD_REACTORS
330
47
102
}
330
47
100
AcDbScale
 70
     0
300
1-1/2" = 1'-0"
140
1.5
141
12.0
290
     0
  0
SCALE
  5
66
102
{ACAD_REACTORS
330
47
102
}
330
47
100
AcDbScale
 70
     0
300
3" = 1'-0"
140
3.0
141
12.0
290
     0
  0
SCALE
  5
67
102
{ACAD_REACTORS
330
47
102
}
330
47
100
AcDbScale
 70
     0
300
6" = 1'-0"
140
6.0
141
12.0
290
     0
  0
SCALE
  5
68
102
{ACAD_REACTORS
330
47
102
}
330
47
100
AcDbScale
 70
     0
300
1'-0" = 1'-0"
140
12.0
141
12.0
290
     0
  0
ENDSEC
  0
EOF
